ISO-10303-21;
HEADER;
/* Generated by software containing ST-Developer
 * from STEP Tools, Inc. (www.steptools.com) 
 */

FILE_DESCRIPTION(
/* description */ (''),
/* implementation_level */ '2;1');

FILE_NAME(
/* name */ 
'\\\\srvalto\\RedirectedFolders\\Diogo.Freire\\Desktop\\Perfis - STEP\\
PP.T38.38.19.stp',
/* time_stamp */ '2021-03-17T09:53:23+00:00',
/* author */ ('diogo.freire'),
/* organization */ (''),
/* preprocessor_version */ 'ST-DEVELOPER v18.1',
/* originating_system */ 'Autodesk Inventor 2021',
/* authorisation */ '');

FILE_SCHEMA (('AUTOMOTIVE_DESIGN { 1 0 10303 214 3 1 1 }'));
ENDSEC;

DATA;
#10=MECHANICAL_DESIGN_GEOMETRIC_PRESENTATION_REPRESENTATION('',(#13),#601);
#11=SHAPE_REPRESENTATION_RELATIONSHIP('SRR','None',#608,#12);
#12=ADVANCED_BREP_SHAPE_REPRESENTATION('',(#14),#600);
#13=STYLED_ITEM('',(#617),#14);
#14=MANIFOLD_SOLID_BREP('Solid1',#343);
#15=CIRCLE('',#365,2.);
#16=CIRCLE('',#366,2.);
#17=CIRCLE('',#369,2.);
#18=CIRCLE('',#370,2.);
#19=CIRCLE('',#373,2.);
#20=CIRCLE('',#374,2.);
#21=CIRCLE('',#377,2.);
#22=CIRCLE('',#378,2.);
#23=CIRCLE('',#381,2.);
#24=CIRCLE('',#382,2.);
#25=CIRCLE('',#385,2.);
#26=CIRCLE('',#386,2.);
#27=CIRCLE('',#389,2.);
#28=CIRCLE('',#390,2.);
#29=CIRCLE('',#393,2.);
#30=CIRCLE('',#394,2.);
#31=CYLINDRICAL_SURFACE('',#364,2.);
#32=CYLINDRICAL_SURFACE('',#368,2.);
#33=CYLINDRICAL_SURFACE('',#372,2.);
#34=CYLINDRICAL_SURFACE('',#376,2.);
#35=CYLINDRICAL_SURFACE('',#380,2.);
#36=CYLINDRICAL_SURFACE('',#384,2.);
#37=CYLINDRICAL_SURFACE('',#388,2.);
#38=CYLINDRICAL_SURFACE('',#392,2.);
#39=FACE_OUTER_BOUND('',#57,.T.);
#40=FACE_OUTER_BOUND('',#58,.T.);
#41=FACE_OUTER_BOUND('',#59,.T.);
#42=FACE_OUTER_BOUND('',#60,.T.);
#43=FACE_OUTER_BOUND('',#61,.T.);
#44=FACE_OUTER_BOUND('',#62,.T.);
#45=FACE_OUTER_BOUND('',#63,.T.);
#46=FACE_OUTER_BOUND('',#64,.T.);
#47=FACE_OUTER_BOUND('',#65,.T.);
#48=FACE_OUTER_BOUND('',#66,.T.);
#49=FACE_OUTER_BOUND('',#67,.T.);
#50=FACE_OUTER_BOUND('',#68,.T.);
#51=FACE_OUTER_BOUND('',#69,.T.);
#52=FACE_OUTER_BOUND('',#70,.T.);
#53=FACE_OUTER_BOUND('',#71,.T.);
#54=FACE_OUTER_BOUND('',#72,.T.);
#55=FACE_OUTER_BOUND('',#73,.T.);
#56=FACE_OUTER_BOUND('',#74,.T.);
#57=EDGE_LOOP('',(#219,#220,#221,#222));
#58=EDGE_LOOP('',(#223,#224,#225,#226));
#59=EDGE_LOOP('',(#227,#228,#229,#230));
#60=EDGE_LOOP('',(#231,#232,#233,#234));
#61=EDGE_LOOP('',(#235,#236,#237,#238));
#62=EDGE_LOOP('',(#239,#240,#241,#242));
#63=EDGE_LOOP('',(#243,#244,#245,#246));
#64=EDGE_LOOP('',(#247,#248,#249,#250));
#65=EDGE_LOOP('',(#251,#252,#253,#254));
#66=EDGE_LOOP('',(#255,#256,#257,#258));
#67=EDGE_LOOP('',(#259,#260,#261,#262));
#68=EDGE_LOOP('',(#263,#264,#265,#266));
#69=EDGE_LOOP('',(#267,#268,#269,#270));
#70=EDGE_LOOP('',(#271,#272,#273,#274));
#71=EDGE_LOOP('',(#275,#276,#277,#278));
#72=EDGE_LOOP('',(#279,#280,#281,#282));
#73=EDGE_LOOP('',(#283,#284,#285,#286,#287,#288,#289,#290,#291,#292,#293,
#294,#295,#296,#297,#298));
#74=EDGE_LOOP('',(#299,#300,#301,#302,#303,#304,#305,#306,#307,#308,#309,
#310,#311,#312,#313,#314));
#75=LINE('',#503,#107);
#76=LINE('',#505,#108);
#77=LINE('',#507,#109);
#78=LINE('',#508,#110);
#79=LINE('',#513,#111);
#80=LINE('',#517,#112);
#81=LINE('',#519,#113);
#82=LINE('',#520,#114);
#83=LINE('',#525,#115);
#84=LINE('',#529,#116);
#85=LINE('',#531,#117);
#86=LINE('',#532,#118);
#87=LINE('',#537,#119);
#88=LINE('',#541,#120);
#89=LINE('',#543,#121);
#90=LINE('',#544,#122);
#91=LINE('',#549,#123);
#92=LINE('',#553,#124);
#93=LINE('',#555,#125);
#94=LINE('',#556,#126);
#95=LINE('',#561,#127);
#96=LINE('',#565,#128);
#97=LINE('',#567,#129);
#98=LINE('',#568,#130);
#99=LINE('',#573,#131);
#100=LINE('',#577,#132);
#101=LINE('',#579,#133);
#102=LINE('',#580,#134);
#103=LINE('',#585,#135);
#104=LINE('',#589,#136);
#105=LINE('',#591,#137);
#106=LINE('',#592,#138);
#107=VECTOR('',#401,10.);
#108=VECTOR('',#402,10.);
#109=VECTOR('',#403,10.);
#110=VECTOR('',#404,10.);
#111=VECTOR('',#409,10.);
#112=VECTOR('',#414,10.);
#113=VECTOR('',#415,10.);
#114=VECTOR('',#416,10.);
#115=VECTOR('',#421,10.);
#116=VECTOR('',#426,10.);
#117=VECTOR('',#427,10.);
#118=VECTOR('',#428,10.);
#119=VECTOR('',#433,10.);
#120=VECTOR('',#438,10.);
#121=VECTOR('',#439,10.);
#122=VECTOR('',#440,10.);
#123=VECTOR('',#445,10.);
#124=VECTOR('',#450,10.);
#125=VECTOR('',#451,10.);
#126=VECTOR('',#452,10.);
#127=VECTOR('',#457,10.);
#128=VECTOR('',#462,10.);
#129=VECTOR('',#463,10.);
#130=VECTOR('',#464,10.);
#131=VECTOR('',#469,10.);
#132=VECTOR('',#474,10.);
#133=VECTOR('',#475,10.);
#134=VECTOR('',#476,10.);
#135=VECTOR('',#481,10.);
#136=VECTOR('',#486,10.);
#137=VECTOR('',#487,10.);
#138=VECTOR('',#488,10.);
#139=VERTEX_POINT('',#501);
#140=VERTEX_POINT('',#502);
#141=VERTEX_POINT('',#504);
#142=VERTEX_POINT('',#506);
#143=VERTEX_POINT('',#510);
#144=VERTEX_POINT('',#512);
#145=VERTEX_POINT('',#516);
#146=VERTEX_POINT('',#518);
#147=VERTEX_POINT('',#522);
#148=VERTEX_POINT('',#524);
#149=VERTEX_POINT('',#528);
#150=VERTEX_POINT('',#530);
#151=VERTEX_POINT('',#534);
#152=VERTEX_POINT('',#536);
#153=VERTEX_POINT('',#540);
#154=VERTEX_POINT('',#542);
#155=VERTEX_POINT('',#546);
#156=VERTEX_POINT('',#548);
#157=VERTEX_POINT('',#552);
#158=VERTEX_POINT('',#554);
#159=VERTEX_POINT('',#558);
#160=VERTEX_POINT('',#560);
#161=VERTEX_POINT('',#564);
#162=VERTEX_POINT('',#566);
#163=VERTEX_POINT('',#570);
#164=VERTEX_POINT('',#572);
#165=VERTEX_POINT('',#576);
#166=VERTEX_POINT('',#578);
#167=VERTEX_POINT('',#582);
#168=VERTEX_POINT('',#584);
#169=VERTEX_POINT('',#588);
#170=VERTEX_POINT('',#590);
#171=EDGE_CURVE('',#139,#140,#75,.T.);
#172=EDGE_CURVE('',#141,#140,#76,.T.);
#173=EDGE_CURVE('',#142,#141,#77,.T.);
#174=EDGE_CURVE('',#142,#139,#78,.T.);
#175=EDGE_CURVE('',#140,#143,#15,.T.);
#176=EDGE_CURVE('',#144,#143,#79,.T.);
#177=EDGE_CURVE('',#141,#144,#16,.T.);
#178=EDGE_CURVE('',#143,#145,#80,.T.);
#179=EDGE_CURVE('',#146,#145,#81,.T.);
#180=EDGE_CURVE('',#144,#146,#82,.T.);
#181=EDGE_CURVE('',#145,#147,#17,.T.);
#182=EDGE_CURVE('',#148,#147,#83,.T.);
#183=EDGE_CURVE('',#146,#148,#18,.T.);
#184=EDGE_CURVE('',#147,#149,#84,.T.);
#185=EDGE_CURVE('',#150,#149,#85,.T.);
#186=EDGE_CURVE('',#148,#150,#86,.T.);
#187=EDGE_CURVE('',#149,#151,#19,.T.);
#188=EDGE_CURVE('',#152,#151,#87,.T.);
#189=EDGE_CURVE('',#150,#152,#20,.T.);
#190=EDGE_CURVE('',#151,#153,#88,.T.);
#191=EDGE_CURVE('',#154,#153,#89,.T.);
#192=EDGE_CURVE('',#152,#154,#90,.T.);
#193=EDGE_CURVE('',#153,#155,#21,.T.);
#194=EDGE_CURVE('',#156,#155,#91,.T.);
#195=EDGE_CURVE('',#154,#156,#22,.T.);
#196=EDGE_CURVE('',#155,#157,#92,.T.);
#197=EDGE_CURVE('',#158,#157,#93,.T.);
#198=EDGE_CURVE('',#156,#158,#94,.T.);
#199=EDGE_CURVE('',#157,#159,#23,.T.);
#200=EDGE_CURVE('',#160,#159,#95,.T.);
#201=EDGE_CURVE('',#158,#160,#24,.T.);
#202=EDGE_CURVE('',#159,#161,#96,.T.);
#203=EDGE_CURVE('',#162,#161,#97,.T.);
#204=EDGE_CURVE('',#160,#162,#98,.T.);
#205=EDGE_CURVE('',#161,#163,#25,.T.);
#206=EDGE_CURVE('',#164,#163,#99,.T.);
#207=EDGE_CURVE('',#162,#164,#26,.T.);
#208=EDGE_CURVE('',#163,#165,#100,.T.);
#209=EDGE_CURVE('',#166,#165,#101,.T.);
#210=EDGE_CURVE('',#164,#166,#102,.T.);
#211=EDGE_CURVE('',#165,#167,#27,.T.);
#212=EDGE_CURVE('',#168,#167,#103,.T.);
#213=EDGE_CURVE('',#166,#168,#28,.T.);
#214=EDGE_CURVE('',#167,#169,#104,.T.);
#215=EDGE_CURVE('',#170,#169,#105,.T.);
#216=EDGE_CURVE('',#168,#170,#106,.T.);
#217=EDGE_CURVE('',#169,#139,#29,.T.);
#218=EDGE_CURVE('',#170,#142,#30,.T.);
#219=ORIENTED_EDGE('',*,*,#171,.T.);
#220=ORIENTED_EDGE('',*,*,#172,.F.);
#221=ORIENTED_EDGE('',*,*,#173,.F.);
#222=ORIENTED_EDGE('',*,*,#174,.T.);
#223=ORIENTED_EDGE('',*,*,#175,.T.);
#224=ORIENTED_EDGE('',*,*,#176,.F.);
#225=ORIENTED_EDGE('',*,*,#177,.F.);
#226=ORIENTED_EDGE('',*,*,#172,.T.);
#227=ORIENTED_EDGE('',*,*,#178,.T.);
#228=ORIENTED_EDGE('',*,*,#179,.F.);
#229=ORIENTED_EDGE('',*,*,#180,.F.);
#230=ORIENTED_EDGE('',*,*,#176,.T.);
#231=ORIENTED_EDGE('',*,*,#181,.T.);
#232=ORIENTED_EDGE('',*,*,#182,.F.);
#233=ORIENTED_EDGE('',*,*,#183,.F.);
#234=ORIENTED_EDGE('',*,*,#179,.T.);
#235=ORIENTED_EDGE('',*,*,#184,.T.);
#236=ORIENTED_EDGE('',*,*,#185,.F.);
#237=ORIENTED_EDGE('',*,*,#186,.F.);
#238=ORIENTED_EDGE('',*,*,#182,.T.);
#239=ORIENTED_EDGE('',*,*,#187,.T.);
#240=ORIENTED_EDGE('',*,*,#188,.F.);
#241=ORIENTED_EDGE('',*,*,#189,.F.);
#242=ORIENTED_EDGE('',*,*,#185,.T.);
#243=ORIENTED_EDGE('',*,*,#190,.T.);
#244=ORIENTED_EDGE('',*,*,#191,.F.);
#245=ORIENTED_EDGE('',*,*,#192,.F.);
#246=ORIENTED_EDGE('',*,*,#188,.T.);
#247=ORIENTED_EDGE('',*,*,#193,.T.);
#248=ORIENTED_EDGE('',*,*,#194,.F.);
#249=ORIENTED_EDGE('',*,*,#195,.F.);
#250=ORIENTED_EDGE('',*,*,#191,.T.);
#251=ORIENTED_EDGE('',*,*,#196,.T.);
#252=ORIENTED_EDGE('',*,*,#197,.F.);
#253=ORIENTED_EDGE('',*,*,#198,.F.);
#254=ORIENTED_EDGE('',*,*,#194,.T.);
#255=ORIENTED_EDGE('',*,*,#199,.T.);
#256=ORIENTED_EDGE('',*,*,#200,.F.);
#257=ORIENTED_EDGE('',*,*,#201,.F.);
#258=ORIENTED_EDGE('',*,*,#197,.T.);
#259=ORIENTED_EDGE('',*,*,#202,.T.);
#260=ORIENTED_EDGE('',*,*,#203,.F.);
#261=ORIENTED_EDGE('',*,*,#204,.F.);
#262=ORIENTED_EDGE('',*,*,#200,.T.);
#263=ORIENTED_EDGE('',*,*,#205,.T.);
#264=ORIENTED_EDGE('',*,*,#206,.F.);
#265=ORIENTED_EDGE('',*,*,#207,.F.);
#266=ORIENTED_EDGE('',*,*,#203,.T.);
#267=ORIENTED_EDGE('',*,*,#208,.T.);
#268=ORIENTED_EDGE('',*,*,#209,.F.);
#269=ORIENTED_EDGE('',*,*,#210,.F.);
#270=ORIENTED_EDGE('',*,*,#206,.T.);
#271=ORIENTED_EDGE('',*,*,#211,.T.);
#272=ORIENTED_EDGE('',*,*,#212,.F.);
#273=ORIENTED_EDGE('',*,*,#213,.F.);
#274=ORIENTED_EDGE('',*,*,#209,.T.);
#275=ORIENTED_EDGE('',*,*,#214,.T.);
#276=ORIENTED_EDGE('',*,*,#215,.F.);
#277=ORIENTED_EDGE('',*,*,#216,.F.);
#278=ORIENTED_EDGE('',*,*,#212,.T.);
#279=ORIENTED_EDGE('',*,*,#217,.T.);
#280=ORIENTED_EDGE('',*,*,#174,.F.);
#281=ORIENTED_EDGE('',*,*,#218,.F.);
#282=ORIENTED_EDGE('',*,*,#215,.T.);
#283=ORIENTED_EDGE('',*,*,#171,.F.);
#284=ORIENTED_EDGE('',*,*,#217,.F.);
#285=ORIENTED_EDGE('',*,*,#214,.F.);
#286=ORIENTED_EDGE('',*,*,#211,.F.);
#287=ORIENTED_EDGE('',*,*,#208,.F.);
#288=ORIENTED_EDGE('',*,*,#205,.F.);
#289=ORIENTED_EDGE('',*,*,#202,.F.);
#290=ORIENTED_EDGE('',*,*,#199,.F.);
#291=ORIENTED_EDGE('',*,*,#196,.F.);
#292=ORIENTED_EDGE('',*,*,#193,.F.);
#293=ORIENTED_EDGE('',*,*,#190,.F.);
#294=ORIENTED_EDGE('',*,*,#187,.F.);
#295=ORIENTED_EDGE('',*,*,#184,.F.);
#296=ORIENTED_EDGE('',*,*,#181,.F.);
#297=ORIENTED_EDGE('',*,*,#178,.F.);
#298=ORIENTED_EDGE('',*,*,#175,.F.);
#299=ORIENTED_EDGE('',*,*,#218,.T.);
#300=ORIENTED_EDGE('',*,*,#173,.T.);
#301=ORIENTED_EDGE('',*,*,#177,.T.);
#302=ORIENTED_EDGE('',*,*,#180,.T.);
#303=ORIENTED_EDGE('',*,*,#183,.T.);
#304=ORIENTED_EDGE('',*,*,#186,.T.);
#305=ORIENTED_EDGE('',*,*,#189,.T.);
#306=ORIENTED_EDGE('',*,*,#192,.T.);
#307=ORIENTED_EDGE('',*,*,#195,.T.);
#308=ORIENTED_EDGE('',*,*,#198,.T.);
#309=ORIENTED_EDGE('',*,*,#201,.T.);
#310=ORIENTED_EDGE('',*,*,#204,.T.);
#311=ORIENTED_EDGE('',*,*,#207,.T.);
#312=ORIENTED_EDGE('',*,*,#210,.T.);
#313=ORIENTED_EDGE('',*,*,#213,.T.);
#314=ORIENTED_EDGE('',*,*,#216,.T.);
#315=PLANE('',#363);
#316=PLANE('',#367);
#317=PLANE('',#371);
#318=PLANE('',#375);
#319=PLANE('',#379);
#320=PLANE('',#383);
#321=PLANE('',#387);
#322=PLANE('',#391);
#323=PLANE('',#395);
#324=PLANE('',#396);
#325=ADVANCED_FACE('',(#39),#315,.T.);
#326=ADVANCED_FACE('',(#40),#31,.T.);
#327=ADVANCED_FACE('',(#41),#316,.T.);
#328=ADVANCED_FACE('',(#42),#32,.F.);
#329=ADVANCED_FACE('',(#43),#317,.T.);
#330=ADVANCED_FACE('',(#44),#33,.T.);
#331=ADVANCED_FACE('',(#45),#318,.T.);
#332=ADVANCED_FACE('',(#46),#34,.T.);
#333=ADVANCED_FACE('',(#47),#319,.T.);
#334=ADVANCED_FACE('',(#48),#35,.T.);
#335=ADVANCED_FACE('',(#49),#320,.T.);
#336=ADVANCED_FACE('',(#50),#36,.T.);
#337=ADVANCED_FACE('',(#51),#321,.T.);
#338=ADVANCED_FACE('',(#52),#37,.F.);
#339=ADVANCED_FACE('',(#53),#322,.T.);
#340=ADVANCED_FACE('',(#54),#38,.T.);
#341=ADVANCED_FACE('',(#55),#323,.T.);
#342=ADVANCED_FACE('',(#56),#324,.F.);
#343=CLOSED_SHELL('',(#325,#326,#327,#328,#329,#330,#331,#332,#333,#334,
#335,#336,#337,#338,#339,#340,#341,#342));
#344=DERIVED_UNIT_ELEMENT(#346,1.);
#345=DERIVED_UNIT_ELEMENT(#603,3.);
#346=(
MASS_UNIT()
NAMED_UNIT(*)
SI_UNIT($,.GRAM.)
);
#347=DERIVED_UNIT((#344,#345));
#348=MEASURE_REPRESENTATION_ITEM('density measure',
POSITIVE_RATIO_MEASURE(1.),#347);
#349=PROPERTY_DEFINITION_REPRESENTATION(#354,#351);
#350=PROPERTY_DEFINITION_REPRESENTATION(#355,#352);
#351=REPRESENTATION('material name',(#353),#600);
#352=REPRESENTATION('density',(#348),#600);
#353=DESCRIPTIVE_REPRESENTATION_ITEM('Generic','Generic');
#354=PROPERTY_DEFINITION('material property','material name',#610);
#355=PROPERTY_DEFINITION('material property','density of part',#610);
#356=DATE_TIME_ROLE('creation_date');
#357=APPLIED_DATE_AND_TIME_ASSIGNMENT(#358,#356,(#610));
#358=DATE_AND_TIME(#359,#360);
#359=CALENDAR_DATE(2008,31,1);
#360=LOCAL_TIME(0,0,0.,#361);
#361=COORDINATED_UNIVERSAL_TIME_OFFSET(0,0,.BEHIND.);
#362=AXIS2_PLACEMENT_3D('placement',#499,#397,#398);
#363=AXIS2_PLACEMENT_3D('',#500,#399,#400);
#364=AXIS2_PLACEMENT_3D('',#509,#405,#406);
#365=AXIS2_PLACEMENT_3D('',#511,#407,#408);
#366=AXIS2_PLACEMENT_3D('',#514,#410,#411);
#367=AXIS2_PLACEMENT_3D('',#515,#412,#413);
#368=AXIS2_PLACEMENT_3D('',#521,#417,#418);
#369=AXIS2_PLACEMENT_3D('',#523,#419,#420);
#370=AXIS2_PLACEMENT_3D('',#526,#422,#423);
#371=AXIS2_PLACEMENT_3D('',#527,#424,#425);
#372=AXIS2_PLACEMENT_3D('',#533,#429,#430);
#373=AXIS2_PLACEMENT_3D('',#535,#431,#432);
#374=AXIS2_PLACEMENT_3D('',#538,#434,#435);
#375=AXIS2_PLACEMENT_3D('',#539,#436,#437);
#376=AXIS2_PLACEMENT_3D('',#545,#441,#442);
#377=AXIS2_PLACEMENT_3D('',#547,#443,#444);
#378=AXIS2_PLACEMENT_3D('',#550,#446,#447);
#379=AXIS2_PLACEMENT_3D('',#551,#448,#449);
#380=AXIS2_PLACEMENT_3D('',#557,#453,#454);
#381=AXIS2_PLACEMENT_3D('',#559,#455,#456);
#382=AXIS2_PLACEMENT_3D('',#562,#458,#459);
#383=AXIS2_PLACEMENT_3D('',#563,#460,#461);
#384=AXIS2_PLACEMENT_3D('',#569,#465,#466);
#385=AXIS2_PLACEMENT_3D('',#571,#467,#468);
#386=AXIS2_PLACEMENT_3D('',#574,#470,#471);
#387=AXIS2_PLACEMENT_3D('',#575,#472,#473);
#388=AXIS2_PLACEMENT_3D('',#581,#477,#478);
#389=AXIS2_PLACEMENT_3D('',#583,#479,#480);
#390=AXIS2_PLACEMENT_3D('',#586,#482,#483);
#391=AXIS2_PLACEMENT_3D('',#587,#484,#485);
#392=AXIS2_PLACEMENT_3D('',#593,#489,#490);
#393=AXIS2_PLACEMENT_3D('',#594,#491,#492);
#394=AXIS2_PLACEMENT_3D('',#595,#493,#494);
#395=AXIS2_PLACEMENT_3D('',#596,#495,#496);
#396=AXIS2_PLACEMENT_3D('',#597,#497,#498);
#397=DIRECTION('axis',(0.,0.,1.));
#398=DIRECTION('refdir',(1.,0.,0.));
#399=DIRECTION('center_axis',(0.,1.,0.));
#400=DIRECTION('ref_axis',(0.,0.,1.));
#401=DIRECTION('',(1.,0.,0.));
#402=DIRECTION('',(0.,0.,1.));
#403=DIRECTION('',(1.,0.,0.));
#404=DIRECTION('',(0.,0.,1.));
#405=DIRECTION('center_axis',(0.,0.,1.));
#406=DIRECTION('ref_axis',(-1.,0.,0.));
#407=DIRECTION('center_axis',(0.,0.,-1.));
#408=DIRECTION('ref_axis',(-1.,0.,0.));
#409=DIRECTION('',(0.,0.,1.));
#410=DIRECTION('center_axis',(0.,0.,-1.));
#411=DIRECTION('ref_axis',(-1.,0.,0.));
#412=DIRECTION('center_axis',(1.,7.40148683083438E-17,0.));
#413=DIRECTION('ref_axis',(0.,0.,-1.));
#414=DIRECTION('',(7.40148683083438E-17,-1.,0.));
#415=DIRECTION('',(0.,0.,1.));
#416=DIRECTION('',(7.40148683083438E-17,-1.,0.));
#417=DIRECTION('center_axis',(0.,0.,1.));
#418=DIRECTION('ref_axis',(-1.,0.,0.));
#419=DIRECTION('center_axis',(0.,0.,1.));
#420=DIRECTION('ref_axis',(-1.,0.,0.));
#421=DIRECTION('',(0.,0.,1.));
#422=DIRECTION('center_axis',(0.,0.,1.));
#423=DIRECTION('ref_axis',(-1.,0.,0.));
#424=DIRECTION('center_axis',(0.,1.,0.));
#425=DIRECTION('ref_axis',(0.,0.,1.));
#426=DIRECTION('',(1.,0.,0.));
#427=DIRECTION('',(0.,0.,1.));
#428=DIRECTION('',(1.,0.,0.));
#429=DIRECTION('center_axis',(0.,0.,1.));
#430=DIRECTION('ref_axis',(-1.,0.,0.));
#431=DIRECTION('center_axis',(0.,0.,-1.));
#432=DIRECTION('ref_axis',(-1.,0.,0.));
#433=DIRECTION('',(0.,0.,1.));
#434=DIRECTION('center_axis',(0.,0.,-1.));
#435=DIRECTION('ref_axis',(-1.,0.,0.));
#436=DIRECTION('center_axis',(1.,0.,0.));
#437=DIRECTION('ref_axis',(0.,0.,-1.));
#438=DIRECTION('',(0.,-1.,0.));
#439=DIRECTION('',(0.,0.,1.));
#440=DIRECTION('',(0.,-1.,0.));
#441=DIRECTION('center_axis',(0.,0.,1.));
#442=DIRECTION('ref_axis',(0.,1.,0.));
#443=DIRECTION('center_axis',(0.,0.,-1.));
#444=DIRECTION('ref_axis',(0.,1.,0.));
#445=DIRECTION('',(0.,0.,1.));
#446=DIRECTION('center_axis',(0.,0.,-1.));
#447=DIRECTION('ref_axis',(0.,1.,0.));
#448=DIRECTION('center_axis',(0.,-1.,0.));
#449=DIRECTION('ref_axis',(0.,0.,-1.));
#450=DIRECTION('',(-1.,0.,0.));
#451=DIRECTION('',(0.,0.,1.));
#452=DIRECTION('',(-1.,0.,0.));
#453=DIRECTION('center_axis',(0.,0.,1.));
#454=DIRECTION('ref_axis',(1.,0.,0.));
#455=DIRECTION('center_axis',(0.,0.,-1.));
#456=DIRECTION('ref_axis',(1.,0.,0.));
#457=DIRECTION('',(0.,0.,1.));
#458=DIRECTION('center_axis',(0.,0.,-1.));
#459=DIRECTION('ref_axis',(1.,0.,0.));
#460=DIRECTION('center_axis',(-1.,0.,0.));
#461=DIRECTION('ref_axis',(0.,0.,1.));
#462=DIRECTION('',(0.,1.,0.));
#463=DIRECTION('',(0.,0.,1.));
#464=DIRECTION('',(0.,1.,0.));
#465=DIRECTION('center_axis',(0.,0.,1.));
#466=DIRECTION('ref_axis',(0.,-1.,0.));
#467=DIRECTION('center_axis',(0.,0.,-1.));
#468=DIRECTION('ref_axis',(0.,-1.,0.));
#469=DIRECTION('',(0.,0.,1.));
#470=DIRECTION('center_axis',(0.,0.,-1.));
#471=DIRECTION('ref_axis',(0.,-1.,0.));
#472=DIRECTION('center_axis',(0.,1.,0.));
#473=DIRECTION('ref_axis',(0.,0.,1.));
#474=DIRECTION('',(1.,0.,0.));
#475=DIRECTION('',(0.,0.,1.));
#476=DIRECTION('',(1.,0.,0.));
#477=DIRECTION('center_axis',(0.,0.,1.));
#478=DIRECTION('ref_axis',(0.,-1.,0.));
#479=DIRECTION('center_axis',(0.,0.,1.));
#480=DIRECTION('ref_axis',(0.,-1.,0.));
#481=DIRECTION('',(0.,0.,1.));
#482=DIRECTION('center_axis',(0.,0.,1.));
#483=DIRECTION('ref_axis',(0.,-1.,0.));
#484=DIRECTION('center_axis',(-1.,7.40148683083438E-17,0.));
#485=DIRECTION('ref_axis',(0.,0.,1.));
#486=DIRECTION('',(7.40148683083438E-17,1.,0.));
#487=DIRECTION('',(0.,0.,1.));
#488=DIRECTION('',(7.40148683083438E-17,1.,0.));
#489=DIRECTION('center_axis',(0.,0.,1.));
#490=DIRECTION('ref_axis',(-5.55111512312579E-16,-1.,0.));
#491=DIRECTION('center_axis',(0.,0.,-1.));
#492=DIRECTION('ref_axis',(-5.55111512312579E-16,-1.,0.));
#493=DIRECTION('center_axis',(0.,0.,-1.));
#494=DIRECTION('ref_axis',(-5.55111512312579E-16,-1.,0.));
#495=DIRECTION('center_axis',(0.,0.,1.));
#496=DIRECTION('ref_axis',(1.,0.,0.));
#497=DIRECTION('center_axis',(0.,0.,1.));
#498=DIRECTION('ref_axis',(1.,0.,0.));
#499=CARTESIAN_POINT('',(0.,0.,0.));
#500=CARTESIAN_POINT('Origin',(-7.5,38.,0.));
#501=CARTESIAN_POINT('',(-7.5,38.,6000.));
#502=CARTESIAN_POINT('',(7.5,38.,6000.));
#503=CARTESIAN_POINT('',(-7.5,38.,6000.));
#504=CARTESIAN_POINT('',(7.5,38.,0.));
#505=CARTESIAN_POINT('',(7.5,38.,0.));
#506=CARTESIAN_POINT('',(-7.5,38.,0.));
#507=CARTESIAN_POINT('',(-7.5,38.,0.));
#508=CARTESIAN_POINT('',(-7.5,38.,0.));
#509=CARTESIAN_POINT('Origin',(7.5,36.,0.));
#510=CARTESIAN_POINT('',(9.5,36.,6000.));
#511=CARTESIAN_POINT('Origin',(7.5,36.,6000.));
#512=CARTESIAN_POINT('',(9.5,36.,0.));
#513=CARTESIAN_POINT('',(9.5,36.,0.));
#514=CARTESIAN_POINT('Origin',(7.5,36.,0.));
#515=CARTESIAN_POINT('Origin',(9.5,36.,0.));
#516=CARTESIAN_POINT('',(9.5,21.,6000.));
#517=CARTESIAN_POINT('',(9.5,36.,6000.));
#518=CARTESIAN_POINT('',(9.5,21.,0.));
#519=CARTESIAN_POINT('',(9.5,21.,0.));
#520=CARTESIAN_POINT('',(9.5,36.,0.));
#521=CARTESIAN_POINT('Origin',(11.5,21.,0.));
#522=CARTESIAN_POINT('',(11.5,19.,6000.));
#523=CARTESIAN_POINT('Origin',(11.5,21.,6000.));
#524=CARTESIAN_POINT('',(11.5,19.,0.));
#525=CARTESIAN_POINT('',(11.5,19.,0.));
#526=CARTESIAN_POINT('Origin',(11.5,21.,0.));
#527=CARTESIAN_POINT('Origin',(11.5,19.,0.));
#528=CARTESIAN_POINT('',(17.,19.,6000.));
#529=CARTESIAN_POINT('',(11.5,19.,6000.));
#530=CARTESIAN_POINT('',(17.,19.,0.));
#531=CARTESIAN_POINT('',(17.,19.,0.));
#532=CARTESIAN_POINT('',(11.5,19.,0.));
#533=CARTESIAN_POINT('Origin',(17.,17.,0.));
#534=CARTESIAN_POINT('',(19.,17.,6000.));
#535=CARTESIAN_POINT('Origin',(17.,17.,6000.));
#536=CARTESIAN_POINT('',(19.,17.,0.));
#537=CARTESIAN_POINT('',(19.,17.,0.));
#538=CARTESIAN_POINT('Origin',(17.,17.,0.));
#539=CARTESIAN_POINT('Origin',(19.,17.,0.));
#540=CARTESIAN_POINT('',(19.,2.,6000.));
#541=CARTESIAN_POINT('',(19.,17.,6000.));
#542=CARTESIAN_POINT('',(19.,2.,0.));
#543=CARTESIAN_POINT('',(19.,2.,0.));
#544=CARTESIAN_POINT('',(19.,17.,0.));
#545=CARTESIAN_POINT('Origin',(17.,2.,0.));
#546=CARTESIAN_POINT('',(17.,0.,6000.));
#547=CARTESIAN_POINT('Origin',(17.,2.,6000.));
#548=CARTESIAN_POINT('',(17.,0.,0.));
#549=CARTESIAN_POINT('',(17.,0.,0.));
#550=CARTESIAN_POINT('Origin',(17.,2.,0.));
#551=CARTESIAN_POINT('Origin',(17.,0.,0.));
#552=CARTESIAN_POINT('',(-17.,0.,6000.));
#553=CARTESIAN_POINT('',(17.,0.,6000.));
#554=CARTESIAN_POINT('',(-17.,0.,0.));
#555=CARTESIAN_POINT('',(-17.,0.,0.));
#556=CARTESIAN_POINT('',(17.,0.,0.));
#557=CARTESIAN_POINT('Origin',(-17.,2.,0.));
#558=CARTESIAN_POINT('',(-19.,2.,6000.));
#559=CARTESIAN_POINT('Origin',(-17.,2.,6000.));
#560=CARTESIAN_POINT('',(-19.,2.,0.));
#561=CARTESIAN_POINT('',(-19.,2.,0.));
#562=CARTESIAN_POINT('Origin',(-17.,2.,0.));
#563=CARTESIAN_POINT('Origin',(-19.,2.,0.));
#564=CARTESIAN_POINT('',(-19.,17.,6000.));
#565=CARTESIAN_POINT('',(-19.,2.,6000.));
#566=CARTESIAN_POINT('',(-19.,17.,0.));
#567=CARTESIAN_POINT('',(-19.,17.,0.));
#568=CARTESIAN_POINT('',(-19.,2.,0.));
#569=CARTESIAN_POINT('Origin',(-17.,17.,0.));
#570=CARTESIAN_POINT('',(-17.,19.,6000.));
#571=CARTESIAN_POINT('Origin',(-17.,17.,6000.));
#572=CARTESIAN_POINT('',(-17.,19.,0.));
#573=CARTESIAN_POINT('',(-17.,19.,0.));
#574=CARTESIAN_POINT('Origin',(-17.,17.,0.));
#575=CARTESIAN_POINT('Origin',(-17.,19.,0.));
#576=CARTESIAN_POINT('',(-11.5,19.,6000.));
#577=CARTESIAN_POINT('',(-17.,19.,6000.));
#578=CARTESIAN_POINT('',(-11.5,19.,0.));
#579=CARTESIAN_POINT('',(-11.5,19.,0.));
#580=CARTESIAN_POINT('',(-17.,19.,0.));
#581=CARTESIAN_POINT('Origin',(-11.5,21.,0.));
#582=CARTESIAN_POINT('',(-9.5,21.,6000.));
#583=CARTESIAN_POINT('Origin',(-11.5,21.,6000.));
#584=CARTESIAN_POINT('',(-9.5,21.,0.));
#585=CARTESIAN_POINT('',(-9.5,21.,0.));
#586=CARTESIAN_POINT('Origin',(-11.5,21.,0.));
#587=CARTESIAN_POINT('Origin',(-9.5,21.,0.));
#588=CARTESIAN_POINT('',(-9.5,36.,6000.));
#589=CARTESIAN_POINT('',(-9.5,21.,6000.));
#590=CARTESIAN_POINT('',(-9.5,36.,0.));
#591=CARTESIAN_POINT('',(-9.5,36.,0.));
#592=CARTESIAN_POINT('',(-9.5,21.,0.));
#593=CARTESIAN_POINT('Origin',(-7.5,36.,0.));
#594=CARTESIAN_POINT('Origin',(-7.5,36.,6000.));
#595=CARTESIAN_POINT('Origin',(-7.5,36.,0.));
#596=CARTESIAN_POINT('Origin',(-3.33113064416525E-16,16.5126219146437,6000.));
#597=CARTESIAN_POINT('Origin',(-1.38777878078145E-16,16.5126219146437,0.));
#598=UNCERTAINTY_MEASURE_WITH_UNIT(LENGTH_MEASURE(0.01),#602,
'DISTANCE_ACCURACY_VALUE',
'Maximum model space distance between geometric entities at asserted c
onnectivities');
#599=UNCERTAINTY_MEASURE_WITH_UNIT(LENGTH_MEASURE(0.01),#602,
'DISTANCE_ACCURACY_VALUE',
'Maximum model space distance between geometric entities at asserted c
onnectivities');
#600=(
GEOMETRIC_REPRESENTATION_CONTEXT(3)
GLOBAL_UNCERTAINTY_ASSIGNED_CONTEXT((#598))
GLOBAL_UNIT_ASSIGNED_CONTEXT((#602,#604,#605))
REPRESENTATION_CONTEXT('','3D')
);
#601=(
GEOMETRIC_REPRESENTATION_CONTEXT(3)
GLOBAL_UNCERTAINTY_ASSIGNED_CONTEXT((#599))
GLOBAL_UNIT_ASSIGNED_CONTEXT((#602,#604,#605))
REPRESENTATION_CONTEXT('','3D')
);
#602=(
LENGTH_UNIT()
NAMED_UNIT(*)
SI_UNIT(.MILLI.,.METRE.)
);
#603=(
LENGTH_UNIT()
NAMED_UNIT(*)
SI_UNIT(.CENTI.,.METRE.)
);
#604=(
NAMED_UNIT(*)
PLANE_ANGLE_UNIT()
SI_UNIT($,.RADIAN.)
);
#605=(
NAMED_UNIT(*)
SI_UNIT($,.STERADIAN.)
SOLID_ANGLE_UNIT()
);
#606=SHAPE_DEFINITION_REPRESENTATION(#607,#608);
#607=PRODUCT_DEFINITION_SHAPE('',$,#610);
#608=SHAPE_REPRESENTATION('',(#362),#600);
#609=PRODUCT_DEFINITION_CONTEXT('part definition',#614,'design');
#610=PRODUCT_DEFINITION('T 38x38x19 (tranca)','PP.T38.38.19',#611,#609);
#611=PRODUCT_DEFINITION_FORMATION('',$,#616);
#612=PRODUCT_RELATED_PRODUCT_CATEGORY('PP.T38.38.19','PP.T38.38.19',(#616));
#613=APPLICATION_PROTOCOL_DEFINITION('international standard',
'automotive_design',2009,#614);
#614=APPLICATION_CONTEXT(
'Core Data for Automotive Mechanical Design Process');
#615=PRODUCT_CONTEXT('part definition',#614,'mechanical');
#616=PRODUCT('T 38x38x19 (tranca)','PP.T38.38.19',$,(#615));
#617=PRESENTATION_STYLE_ASSIGNMENT((#618));
#618=SURFACE_STYLE_USAGE(.BOTH.,#621);
#619=SURFACE_STYLE_RENDERING_WITH_PROPERTIES($,#625,(#620));
#620=SURFACE_STYLE_TRANSPARENT(0.);
#621=SURFACE_SIDE_STYLE('',(#622,#619));
#622=SURFACE_STYLE_FILL_AREA(#623);
#623=FILL_AREA_STYLE('',(#624));
#624=FILL_AREA_STYLE_COLOUR('',#625);
#625=COLOUR_RGB('',0.752941176470588,0.752941176470588,0.752941176470588);
ENDSEC;
END-ISO-10303-21;
