ISO-10303-21;
HEADER;
/* Generated by software containing ST-Developer
 * from STEP Tools, Inc. (www.steptools.com) 
 */

FILE_DESCRIPTION(
/* description */ (''),
/* implementation_level */ '2;1');

FILE_NAME(
/* name */ 
'\\\\srvalto\\RedirectedFolders\\Diogo.Freire\\Desktop\\Perfis - STEP\\
PP.L100.100.8.stp',
/* time_stamp */ '2021-03-17T09:54:51+00:00',
/* author */ ('diogo.freire'),
/* organization */ (''),
/* preprocessor_version */ 'ST-DEVELOPER v18.1',
/* originating_system */ 'Autodesk Inventor 2021',
/* authorisation */ '');

FILE_SCHEMA (('AUTOMOTIVE_DESIGN { 1 0 10303 214 3 1 1 }'));
ENDSEC;

DATA;
#10=MECHANICAL_DESIGN_GEOMETRIC_PRESENTATION_REPRESENTATION('',(#13),#465);
#11=SHAPE_REPRESENTATION_RELATIONSHIP('SRR','None',#472,#12);
#12=ADVANCED_BREP_SHAPE_REPRESENTATION('',(#14),#464);
#13=STYLED_ITEM('',(#481),#14);
#14=MANIFOLD_SOLID_BREP('Solid1',#263);
#15=CIRCLE('',#285,1.5);
#16=CIRCLE('',#286,1.5);
#17=CIRCLE('',#289,1.5);
#18=CIRCLE('',#290,1.5);
#19=CIRCLE('',#293,10.);
#20=CIRCLE('',#294,10.);
#21=CIRCLE('',#297,1.5);
#22=CIRCLE('',#298,1.5);
#23=CIRCLE('',#301,1.50000000000001);
#24=CIRCLE('',#302,1.50000000000001);
#25=CIRCLE('',#305,4.99999999999999);
#26=CIRCLE('',#306,4.99999999999999);
#27=CYLINDRICAL_SURFACE('',#284,1.5);
#28=CYLINDRICAL_SURFACE('',#288,1.5);
#29=CYLINDRICAL_SURFACE('',#292,10.);
#30=CYLINDRICAL_SURFACE('',#296,1.5);
#31=CYLINDRICAL_SURFACE('',#300,1.50000000000001);
#32=CYLINDRICAL_SURFACE('',#304,4.99999999999999);
#33=FACE_OUTER_BOUND('',#47,.T.);
#34=FACE_OUTER_BOUND('',#48,.T.);
#35=FACE_OUTER_BOUND('',#49,.T.);
#36=FACE_OUTER_BOUND('',#50,.T.);
#37=FACE_OUTER_BOUND('',#51,.T.);
#38=FACE_OUTER_BOUND('',#52,.T.);
#39=FACE_OUTER_BOUND('',#53,.T.);
#40=FACE_OUTER_BOUND('',#54,.T.);
#41=FACE_OUTER_BOUND('',#55,.T.);
#42=FACE_OUTER_BOUND('',#56,.T.);
#43=FACE_OUTER_BOUND('',#57,.T.);
#44=FACE_OUTER_BOUND('',#58,.T.);
#45=FACE_OUTER_BOUND('',#59,.T.);
#46=FACE_OUTER_BOUND('',#60,.T.);
#47=EDGE_LOOP('',(#169,#170,#171,#172));
#48=EDGE_LOOP('',(#173,#174,#175,#176));
#49=EDGE_LOOP('',(#177,#178,#179,#180));
#50=EDGE_LOOP('',(#181,#182,#183,#184));
#51=EDGE_LOOP('',(#185,#186,#187,#188));
#52=EDGE_LOOP('',(#189,#190,#191,#192));
#53=EDGE_LOOP('',(#193,#194,#195,#196));
#54=EDGE_LOOP('',(#197,#198,#199,#200));
#55=EDGE_LOOP('',(#201,#202,#203,#204));
#56=EDGE_LOOP('',(#205,#206,#207,#208));
#57=EDGE_LOOP('',(#209,#210,#211,#212));
#58=EDGE_LOOP('',(#213,#214,#215,#216));
#59=EDGE_LOOP('',(#217,#218,#219,#220,#221,#222,#223,#224,#225,#226,#227,
#228));
#60=EDGE_LOOP('',(#229,#230,#231,#232,#233,#234,#235,#236,#237,#238,#239,
#240));
#61=LINE('',#391,#85);
#62=LINE('',#393,#86);
#63=LINE('',#395,#87);
#64=LINE('',#396,#88);
#65=LINE('',#401,#89);
#66=LINE('',#405,#90);
#67=LINE('',#407,#91);
#68=LINE('',#408,#92);
#69=LINE('',#413,#93);
#70=LINE('',#417,#94);
#71=LINE('',#419,#95);
#72=LINE('',#420,#96);
#73=LINE('',#425,#97);
#74=LINE('',#429,#98);
#75=LINE('',#431,#99);
#76=LINE('',#432,#100);
#77=LINE('',#437,#101);
#78=LINE('',#441,#102);
#79=LINE('',#443,#103);
#80=LINE('',#444,#104);
#81=LINE('',#449,#105);
#82=LINE('',#453,#106);
#83=LINE('',#455,#107);
#84=LINE('',#456,#108);
#85=VECTOR('',#313,10.);
#86=VECTOR('',#314,10.);
#87=VECTOR('',#315,10.);
#88=VECTOR('',#316,10.);
#89=VECTOR('',#321,10.);
#90=VECTOR('',#326,10.);
#91=VECTOR('',#327,10.);
#92=VECTOR('',#328,10.);
#93=VECTOR('',#333,10.);
#94=VECTOR('',#338,10.);
#95=VECTOR('',#339,10.);
#96=VECTOR('',#340,10.);
#97=VECTOR('',#345,10.);
#98=VECTOR('',#350,10.);
#99=VECTOR('',#351,10.);
#100=VECTOR('',#352,10.);
#101=VECTOR('',#357,10.);
#102=VECTOR('',#362,10.);
#103=VECTOR('',#363,10.);
#104=VECTOR('',#364,10.);
#105=VECTOR('',#369,10.);
#106=VECTOR('',#374,10.);
#107=VECTOR('',#375,10.);
#108=VECTOR('',#376,10.);
#109=VERTEX_POINT('',#389);
#110=VERTEX_POINT('',#390);
#111=VERTEX_POINT('',#392);
#112=VERTEX_POINT('',#394);
#113=VERTEX_POINT('',#398);
#114=VERTEX_POINT('',#400);
#115=VERTEX_POINT('',#404);
#116=VERTEX_POINT('',#406);
#117=VERTEX_POINT('',#410);
#118=VERTEX_POINT('',#412);
#119=VERTEX_POINT('',#416);
#120=VERTEX_POINT('',#418);
#121=VERTEX_POINT('',#422);
#122=VERTEX_POINT('',#424);
#123=VERTEX_POINT('',#428);
#124=VERTEX_POINT('',#430);
#125=VERTEX_POINT('',#434);
#126=VERTEX_POINT('',#436);
#127=VERTEX_POINT('',#440);
#128=VERTEX_POINT('',#442);
#129=VERTEX_POINT('',#446);
#130=VERTEX_POINT('',#448);
#131=VERTEX_POINT('',#452);
#132=VERTEX_POINT('',#454);
#133=EDGE_CURVE('',#109,#110,#61,.T.);
#134=EDGE_CURVE('',#111,#110,#62,.T.);
#135=EDGE_CURVE('',#112,#111,#63,.T.);
#136=EDGE_CURVE('',#112,#109,#64,.T.);
#137=EDGE_CURVE('',#110,#113,#15,.T.);
#138=EDGE_CURVE('',#114,#113,#65,.T.);
#139=EDGE_CURVE('',#111,#114,#16,.T.);
#140=EDGE_CURVE('',#113,#115,#66,.T.);
#141=EDGE_CURVE('',#116,#115,#67,.T.);
#142=EDGE_CURVE('',#114,#116,#68,.T.);
#143=EDGE_CURVE('',#115,#117,#17,.T.);
#144=EDGE_CURVE('',#118,#117,#69,.T.);
#145=EDGE_CURVE('',#116,#118,#18,.T.);
#146=EDGE_CURVE('',#117,#119,#70,.T.);
#147=EDGE_CURVE('',#120,#119,#71,.T.);
#148=EDGE_CURVE('',#118,#120,#72,.T.);
#149=EDGE_CURVE('',#119,#121,#19,.T.);
#150=EDGE_CURVE('',#122,#121,#73,.T.);
#151=EDGE_CURVE('',#120,#122,#20,.T.);
#152=EDGE_CURVE('',#121,#123,#74,.T.);
#153=EDGE_CURVE('',#124,#123,#75,.T.);
#154=EDGE_CURVE('',#122,#124,#76,.T.);
#155=EDGE_CURVE('',#123,#125,#21,.T.);
#156=EDGE_CURVE('',#126,#125,#77,.T.);
#157=EDGE_CURVE('',#124,#126,#22,.T.);
#158=EDGE_CURVE('',#125,#127,#78,.T.);
#159=EDGE_CURVE('',#128,#127,#79,.T.);
#160=EDGE_CURVE('',#126,#128,#80,.T.);
#161=EDGE_CURVE('',#127,#129,#23,.T.);
#162=EDGE_CURVE('',#130,#129,#81,.T.);
#163=EDGE_CURVE('',#128,#130,#24,.T.);
#164=EDGE_CURVE('',#129,#131,#82,.T.);
#165=EDGE_CURVE('',#132,#131,#83,.T.);
#166=EDGE_CURVE('',#130,#132,#84,.T.);
#167=EDGE_CURVE('',#131,#109,#25,.T.);
#168=EDGE_CURVE('',#132,#112,#26,.T.);
#169=ORIENTED_EDGE('',*,*,#133,.T.);
#170=ORIENTED_EDGE('',*,*,#134,.F.);
#171=ORIENTED_EDGE('',*,*,#135,.F.);
#172=ORIENTED_EDGE('',*,*,#136,.T.);
#173=ORIENTED_EDGE('',*,*,#137,.T.);
#174=ORIENTED_EDGE('',*,*,#138,.F.);
#175=ORIENTED_EDGE('',*,*,#139,.F.);
#176=ORIENTED_EDGE('',*,*,#134,.T.);
#177=ORIENTED_EDGE('',*,*,#140,.T.);
#178=ORIENTED_EDGE('',*,*,#141,.F.);
#179=ORIENTED_EDGE('',*,*,#142,.F.);
#180=ORIENTED_EDGE('',*,*,#138,.T.);
#181=ORIENTED_EDGE('',*,*,#143,.T.);
#182=ORIENTED_EDGE('',*,*,#144,.F.);
#183=ORIENTED_EDGE('',*,*,#145,.F.);
#184=ORIENTED_EDGE('',*,*,#141,.T.);
#185=ORIENTED_EDGE('',*,*,#146,.T.);
#186=ORIENTED_EDGE('',*,*,#147,.F.);
#187=ORIENTED_EDGE('',*,*,#148,.F.);
#188=ORIENTED_EDGE('',*,*,#144,.T.);
#189=ORIENTED_EDGE('',*,*,#149,.T.);
#190=ORIENTED_EDGE('',*,*,#150,.F.);
#191=ORIENTED_EDGE('',*,*,#151,.F.);
#192=ORIENTED_EDGE('',*,*,#147,.T.);
#193=ORIENTED_EDGE('',*,*,#152,.T.);
#194=ORIENTED_EDGE('',*,*,#153,.F.);
#195=ORIENTED_EDGE('',*,*,#154,.F.);
#196=ORIENTED_EDGE('',*,*,#150,.T.);
#197=ORIENTED_EDGE('',*,*,#155,.T.);
#198=ORIENTED_EDGE('',*,*,#156,.F.);
#199=ORIENTED_EDGE('',*,*,#157,.F.);
#200=ORIENTED_EDGE('',*,*,#153,.T.);
#201=ORIENTED_EDGE('',*,*,#158,.T.);
#202=ORIENTED_EDGE('',*,*,#159,.F.);
#203=ORIENTED_EDGE('',*,*,#160,.F.);
#204=ORIENTED_EDGE('',*,*,#156,.T.);
#205=ORIENTED_EDGE('',*,*,#161,.T.);
#206=ORIENTED_EDGE('',*,*,#162,.F.);
#207=ORIENTED_EDGE('',*,*,#163,.F.);
#208=ORIENTED_EDGE('',*,*,#159,.T.);
#209=ORIENTED_EDGE('',*,*,#164,.T.);
#210=ORIENTED_EDGE('',*,*,#165,.F.);
#211=ORIENTED_EDGE('',*,*,#166,.F.);
#212=ORIENTED_EDGE('',*,*,#162,.T.);
#213=ORIENTED_EDGE('',*,*,#167,.T.);
#214=ORIENTED_EDGE('',*,*,#136,.F.);
#215=ORIENTED_EDGE('',*,*,#168,.F.);
#216=ORIENTED_EDGE('',*,*,#165,.T.);
#217=ORIENTED_EDGE('',*,*,#133,.F.);
#218=ORIENTED_EDGE('',*,*,#167,.F.);
#219=ORIENTED_EDGE('',*,*,#164,.F.);
#220=ORIENTED_EDGE('',*,*,#161,.F.);
#221=ORIENTED_EDGE('',*,*,#158,.F.);
#222=ORIENTED_EDGE('',*,*,#155,.F.);
#223=ORIENTED_EDGE('',*,*,#152,.F.);
#224=ORIENTED_EDGE('',*,*,#149,.F.);
#225=ORIENTED_EDGE('',*,*,#146,.F.);
#226=ORIENTED_EDGE('',*,*,#143,.F.);
#227=ORIENTED_EDGE('',*,*,#140,.F.);
#228=ORIENTED_EDGE('',*,*,#137,.F.);
#229=ORIENTED_EDGE('',*,*,#168,.T.);
#230=ORIENTED_EDGE('',*,*,#135,.T.);
#231=ORIENTED_EDGE('',*,*,#139,.T.);
#232=ORIENTED_EDGE('',*,*,#142,.T.);
#233=ORIENTED_EDGE('',*,*,#145,.T.);
#234=ORIENTED_EDGE('',*,*,#148,.T.);
#235=ORIENTED_EDGE('',*,*,#151,.T.);
#236=ORIENTED_EDGE('',*,*,#154,.T.);
#237=ORIENTED_EDGE('',*,*,#157,.T.);
#238=ORIENTED_EDGE('',*,*,#160,.T.);
#239=ORIENTED_EDGE('',*,*,#163,.T.);
#240=ORIENTED_EDGE('',*,*,#166,.T.);
#241=PLANE('',#283);
#242=PLANE('',#287);
#243=PLANE('',#291);
#244=PLANE('',#295);
#245=PLANE('',#299);
#246=PLANE('',#303);
#247=PLANE('',#307);
#248=PLANE('',#308);
#249=ADVANCED_FACE('',(#33),#241,.T.);
#250=ADVANCED_FACE('',(#34),#27,.T.);
#251=ADVANCED_FACE('',(#35),#242,.T.);
#252=ADVANCED_FACE('',(#36),#28,.T.);
#253=ADVANCED_FACE('',(#37),#243,.T.);
#254=ADVANCED_FACE('',(#38),#29,.T.);
#255=ADVANCED_FACE('',(#39),#244,.T.);
#256=ADVANCED_FACE('',(#40),#30,.T.);
#257=ADVANCED_FACE('',(#41),#245,.T.);
#258=ADVANCED_FACE('',(#42),#31,.T.);
#259=ADVANCED_FACE('',(#43),#246,.T.);
#260=ADVANCED_FACE('',(#44),#32,.F.);
#261=ADVANCED_FACE('',(#45),#247,.T.);
#262=ADVANCED_FACE('',(#46),#248,.F.);
#263=CLOSED_SHELL('',(#249,#250,#251,#252,#253,#254,#255,#256,#257,#258,
#259,#260,#261,#262));
#264=DERIVED_UNIT_ELEMENT(#266,1.);
#265=DERIVED_UNIT_ELEMENT(#467,3.);
#266=(
MASS_UNIT()
NAMED_UNIT(*)
SI_UNIT($,.GRAM.)
);
#267=DERIVED_UNIT((#264,#265));
#268=MEASURE_REPRESENTATION_ITEM('density measure',
POSITIVE_RATIO_MEASURE(1.),#267);
#269=PROPERTY_DEFINITION_REPRESENTATION(#274,#271);
#270=PROPERTY_DEFINITION_REPRESENTATION(#275,#272);
#271=REPRESENTATION('material name',(#273),#464);
#272=REPRESENTATION('density',(#268),#464);
#273=DESCRIPTIVE_REPRESENTATION_ITEM('Generic','Generic');
#274=PROPERTY_DEFINITION('material property','material name',#474);
#275=PROPERTY_DEFINITION('material property','density of part',#474);
#276=DATE_TIME_ROLE('creation_date');
#277=APPLIED_DATE_AND_TIME_ASSIGNMENT(#278,#276,(#474));
#278=DATE_AND_TIME(#279,#280);
#279=CALENDAR_DATE(2008,30,1);
#280=LOCAL_TIME(0,0,0.,#281);
#281=COORDINATED_UNIVERSAL_TIME_OFFSET(0,0,.BEHIND.);
#282=AXIS2_PLACEMENT_3D('placement',#387,#309,#310);
#283=AXIS2_PLACEMENT_3D('',#388,#311,#312);
#284=AXIS2_PLACEMENT_3D('',#397,#317,#318);
#285=AXIS2_PLACEMENT_3D('',#399,#319,#320);
#286=AXIS2_PLACEMENT_3D('',#402,#322,#323);
#287=AXIS2_PLACEMENT_3D('',#403,#324,#325);
#288=AXIS2_PLACEMENT_3D('',#409,#329,#330);
#289=AXIS2_PLACEMENT_3D('',#411,#331,#332);
#290=AXIS2_PLACEMENT_3D('',#414,#334,#335);
#291=AXIS2_PLACEMENT_3D('',#415,#336,#337);
#292=AXIS2_PLACEMENT_3D('',#421,#341,#342);
#293=AXIS2_PLACEMENT_3D('',#423,#343,#344);
#294=AXIS2_PLACEMENT_3D('',#426,#346,#347);
#295=AXIS2_PLACEMENT_3D('',#427,#348,#349);
#296=AXIS2_PLACEMENT_3D('',#433,#353,#354);
#297=AXIS2_PLACEMENT_3D('',#435,#355,#356);
#298=AXIS2_PLACEMENT_3D('',#438,#358,#359);
#299=AXIS2_PLACEMENT_3D('',#439,#360,#361);
#300=AXIS2_PLACEMENT_3D('',#445,#365,#366);
#301=AXIS2_PLACEMENT_3D('',#447,#367,#368);
#302=AXIS2_PLACEMENT_3D('',#450,#370,#371);
#303=AXIS2_PLACEMENT_3D('',#451,#372,#373);
#304=AXIS2_PLACEMENT_3D('',#457,#377,#378);
#305=AXIS2_PLACEMENT_3D('',#458,#379,#380);
#306=AXIS2_PLACEMENT_3D('',#459,#381,#382);
#307=AXIS2_PLACEMENT_3D('',#460,#383,#384);
#308=AXIS2_PLACEMENT_3D('',#461,#385,#386);
#309=DIRECTION('axis',(0.,0.,1.));
#310=DIRECTION('refdir',(1.,0.,0.));
#311=DIRECTION('center_axis',(-1.29850646154989E-17,1.,0.));
#312=DIRECTION('ref_axis',(0.,0.,1.));
#313=DIRECTION('',(1.,1.29850646154989E-17,0.));
#314=DIRECTION('',(0.,0.,1.));
#315=DIRECTION('',(1.,1.29850646154989E-17,0.));
#316=DIRECTION('',(0.,0.,1.));
#317=DIRECTION('center_axis',(0.,0.,1.));
#318=DIRECTION('ref_axis',(-1.,7.40148683083436E-16,0.));
#319=DIRECTION('center_axis',(0.,0.,-1.));
#320=DIRECTION('ref_axis',(-1.,7.40148683083436E-16,0.));
#321=DIRECTION('',(0.,0.,1.));
#322=DIRECTION('center_axis',(0.,0.,-1.));
#323=DIRECTION('ref_axis',(-1.,7.40148683083436E-16,0.));
#324=DIRECTION('center_axis',(1.,0.,0.));
#325=DIRECTION('ref_axis',(0.,0.,-1.));
#326=DIRECTION('',(0.,-1.,0.));
#327=DIRECTION('',(0.,0.,1.));
#328=DIRECTION('',(0.,-1.,0.));
#329=DIRECTION('center_axis',(0.,0.,1.));
#330=DIRECTION('ref_axis',(0.,1.,0.));
#331=DIRECTION('center_axis',(0.,0.,-1.));
#332=DIRECTION('ref_axis',(0.,1.,0.));
#333=DIRECTION('',(0.,0.,1.));
#334=DIRECTION('center_axis',(0.,0.,-1.));
#335=DIRECTION('ref_axis',(0.,1.,0.));
#336=DIRECTION('center_axis',(0.,-1.,0.));
#337=DIRECTION('ref_axis',(0.,0.,-1.));
#338=DIRECTION('',(-1.,0.,0.));
#339=DIRECTION('',(0.,0.,1.));
#340=DIRECTION('',(-1.,0.,0.));
#341=DIRECTION('center_axis',(0.,0.,1.));
#342=DIRECTION('ref_axis',(1.,2.22044604925031E-16,0.));
#343=DIRECTION('center_axis',(0.,0.,-1.));
#344=DIRECTION('ref_axis',(1.,2.22044604925031E-16,0.));
#345=DIRECTION('',(0.,0.,1.));
#346=DIRECTION('center_axis',(0.,0.,-1.));
#347=DIRECTION('ref_axis',(1.,2.22044604925031E-16,0.));
#348=DIRECTION('center_axis',(-1.,0.,0.));
#349=DIRECTION('ref_axis',(0.,0.,1.));
#350=DIRECTION('',(0.,1.,0.));
#351=DIRECTION('',(0.,0.,1.));
#352=DIRECTION('',(0.,1.,0.));
#353=DIRECTION('center_axis',(0.,0.,1.));
#354=DIRECTION('ref_axis',(0.,-1.,0.));
#355=DIRECTION('center_axis',(0.,0.,-1.));
#356=DIRECTION('ref_axis',(0.,-1.,0.));
#357=DIRECTION('',(0.,0.,1.));
#358=DIRECTION('center_axis',(0.,0.,-1.));
#359=DIRECTION('ref_axis',(0.,-1.,0.));
#360=DIRECTION('center_axis',(0.,1.,0.));
#361=DIRECTION('ref_axis',(0.,0.,1.));
#362=DIRECTION('',(1.,0.,0.));
#363=DIRECTION('',(0.,0.,1.));
#364=DIRECTION('',(1.,0.,0.));
#365=DIRECTION('center_axis',(0.,0.,1.));
#366=DIRECTION('ref_axis',(-1.,0.,0.));
#367=DIRECTION('center_axis',(0.,0.,-1.));
#368=DIRECTION('ref_axis',(-1.,0.,0.));
#369=DIRECTION('',(0.,0.,1.));
#370=DIRECTION('center_axis',(0.,0.,-1.));
#371=DIRECTION('ref_axis',(-1.,0.,0.));
#372=DIRECTION('center_axis',(1.,-3.89551938464967E-17,0.));
#373=DIRECTION('ref_axis',(0.,0.,-1.));
#374=DIRECTION('',(-3.89551938464967E-17,-1.,0.));
#375=DIRECTION('',(0.,0.,1.));
#376=DIRECTION('',(-3.89551938464967E-17,-1.,0.));
#377=DIRECTION('center_axis',(0.,0.,1.));
#378=DIRECTION('ref_axis',(-1.,0.,0.));
#379=DIRECTION('center_axis',(0.,0.,1.));
#380=DIRECTION('ref_axis',(-1.,0.,0.));
#381=DIRECTION('center_axis',(0.,0.,1.));
#382=DIRECTION('ref_axis',(-1.,0.,0.));
#383=DIRECTION('center_axis',(0.,0.,1.));
#384=DIRECTION('ref_axis',(1.,0.,0.));
#385=DIRECTION('center_axis',(0.,0.,1.));
#386=DIRECTION('ref_axis',(1.,0.,0.));
#387=CARTESIAN_POINT('',(0.,0.,0.));
#388=CARTESIAN_POINT('Origin',(13.,8.,0.));
#389=CARTESIAN_POINT('',(13.,8.,6000.));
#390=CARTESIAN_POINT('',(98.5,8.,6000.));
#391=CARTESIAN_POINT('',(13.,8.,6000.));
#392=CARTESIAN_POINT('',(98.5,8.,0.));
#393=CARTESIAN_POINT('',(98.5,8.,0.));
#394=CARTESIAN_POINT('',(13.,8.,0.));
#395=CARTESIAN_POINT('',(13.,8.,0.));
#396=CARTESIAN_POINT('',(13.,8.,0.));
#397=CARTESIAN_POINT('Origin',(98.5,6.5,0.));
#398=CARTESIAN_POINT('',(100.,6.5,6000.));
#399=CARTESIAN_POINT('Origin',(98.5,6.5,6000.));
#400=CARTESIAN_POINT('',(100.,6.5,0.));
#401=CARTESIAN_POINT('',(100.,6.5,0.));
#402=CARTESIAN_POINT('Origin',(98.5,6.5,0.));
#403=CARTESIAN_POINT('Origin',(100.,6.5,0.));
#404=CARTESIAN_POINT('',(100.,1.5,6000.));
#405=CARTESIAN_POINT('',(100.,6.5,6000.));
#406=CARTESIAN_POINT('',(100.,1.5,0.));
#407=CARTESIAN_POINT('',(100.,1.5,0.));
#408=CARTESIAN_POINT('',(100.,6.5,0.));
#409=CARTESIAN_POINT('Origin',(98.5,1.5,0.));
#410=CARTESIAN_POINT('',(98.5,0.,6000.));
#411=CARTESIAN_POINT('Origin',(98.5,1.5,6000.));
#412=CARTESIAN_POINT('',(98.5,0.,0.));
#413=CARTESIAN_POINT('',(98.5,0.,0.));
#414=CARTESIAN_POINT('Origin',(98.5,1.5,0.));
#415=CARTESIAN_POINT('Origin',(98.5,0.,0.));
#416=CARTESIAN_POINT('',(10.,0.,6000.));
#417=CARTESIAN_POINT('',(98.5,0.,6000.));
#418=CARTESIAN_POINT('',(10.,0.,0.));
#419=CARTESIAN_POINT('',(10.,0.,0.));
#420=CARTESIAN_POINT('',(98.5,0.,0.));
#421=CARTESIAN_POINT('Origin',(10.,10.,0.));
#422=CARTESIAN_POINT('',(0.,10.,6000.));
#423=CARTESIAN_POINT('Origin',(10.,10.,6000.));
#424=CARTESIAN_POINT('',(0.,10.,0.));
#425=CARTESIAN_POINT('',(0.,10.,0.));
#426=CARTESIAN_POINT('Origin',(10.,10.,0.));
#427=CARTESIAN_POINT('Origin',(0.,10.,0.));
#428=CARTESIAN_POINT('',(0.,98.5,6000.));
#429=CARTESIAN_POINT('',(0.,10.,6000.));
#430=CARTESIAN_POINT('',(0.,98.5,0.));
#431=CARTESIAN_POINT('',(0.,98.5,0.));
#432=CARTESIAN_POINT('',(0.,10.,0.));
#433=CARTESIAN_POINT('Origin',(1.5,98.5,0.));
#434=CARTESIAN_POINT('',(1.5,100.,6000.));
#435=CARTESIAN_POINT('Origin',(1.5,98.5,6000.));
#436=CARTESIAN_POINT('',(1.5,100.,0.));
#437=CARTESIAN_POINT('',(1.5,100.,0.));
#438=CARTESIAN_POINT('Origin',(1.5,98.5,0.));
#439=CARTESIAN_POINT('Origin',(1.5,100.,0.));
#440=CARTESIAN_POINT('',(6.5,100.,6000.));
#441=CARTESIAN_POINT('',(1.5,100.,6000.));
#442=CARTESIAN_POINT('',(6.5,100.,0.));
#443=CARTESIAN_POINT('',(6.5,100.,0.));
#444=CARTESIAN_POINT('',(1.5,100.,0.));
#445=CARTESIAN_POINT('Origin',(6.5,98.5,0.));
#446=CARTESIAN_POINT('',(8.,98.5,6000.));
#447=CARTESIAN_POINT('Origin',(6.5,98.5,6000.));
#448=CARTESIAN_POINT('',(8.,98.5,0.));
#449=CARTESIAN_POINT('',(8.,98.5,0.));
#450=CARTESIAN_POINT('Origin',(6.5,98.5,0.));
#451=CARTESIAN_POINT('Origin',(8.,98.5,0.));
#452=CARTESIAN_POINT('',(8.,13.,6000.));
#453=CARTESIAN_POINT('',(8.,98.5,6000.));
#454=CARTESIAN_POINT('',(8.,13.,0.));
#455=CARTESIAN_POINT('',(8.,13.,0.));
#456=CARTESIAN_POINT('',(8.,98.5,0.));
#457=CARTESIAN_POINT('Origin',(13.,13.,0.));
#458=CARTESIAN_POINT('Origin',(13.,13.,6000.));
#459=CARTESIAN_POINT('Origin',(13.,13.,0.));
#460=CARTESIAN_POINT('Origin',(29.1468400334432,29.1468400334432,6000.));
#461=CARTESIAN_POINT('Origin',(29.1468400334432,29.1468400334432,0.));
#462=UNCERTAINTY_MEASURE_WITH_UNIT(LENGTH_MEASURE(0.01),#466,
'DISTANCE_ACCURACY_VALUE',
'Maximum model space distance between geometric entities at asserted c
onnectivities');
#463=UNCERTAINTY_MEASURE_WITH_UNIT(LENGTH_MEASURE(0.01),#466,
'DISTANCE_ACCURACY_VALUE',
'Maximum model space distance between geometric entities at asserted c
onnectivities');
#464=(
GEOMETRIC_REPRESENTATION_CONTEXT(3)
GLOBAL_UNCERTAINTY_ASSIGNED_CONTEXT((#462))
GLOBAL_UNIT_ASSIGNED_CONTEXT((#466,#468,#469))
REPRESENTATION_CONTEXT('','3D')
);
#465=(
GEOMETRIC_REPRESENTATION_CONTEXT(3)
GLOBAL_UNCERTAINTY_ASSIGNED_CONTEXT((#463))
GLOBAL_UNIT_ASSIGNED_CONTEXT((#466,#468,#469))
REPRESENTATION_CONTEXT('','3D')
);
#466=(
LENGTH_UNIT()
NAMED_UNIT(*)
SI_UNIT(.MILLI.,.METRE.)
);
#467=(
LENGTH_UNIT()
NAMED_UNIT(*)
SI_UNIT(.CENTI.,.METRE.)
);
#468=(
NAMED_UNIT(*)
PLANE_ANGLE_UNIT()
SI_UNIT($,.RADIAN.)
);
#469=(
NAMED_UNIT(*)
SI_UNIT($,.STERADIAN.)
SOLID_ANGLE_UNIT()
);
#470=SHAPE_DEFINITION_REPRESENTATION(#471,#472);
#471=PRODUCT_DEFINITION_SHAPE('',$,#474);
#472=SHAPE_REPRESENTATION('',(#282),#464);
#473=PRODUCT_DEFINITION_CONTEXT('part definition',#478,'design');
#474=PRODUCT_DEFINITION('L 60x60x8','PP.L100.100.8',#475,#473);
#475=PRODUCT_DEFINITION_FORMATION('',$,#480);
#476=PRODUCT_RELATED_PRODUCT_CATEGORY('PP.L100.100.8','PP.L100.100.8',(#480));
#477=APPLICATION_PROTOCOL_DEFINITION('international standard',
'automotive_design',2009,#478);
#478=APPLICATION_CONTEXT(
'Core Data for Automotive Mechanical Design Process');
#479=PRODUCT_CONTEXT('part definition',#478,'mechanical');
#480=PRODUCT('L 60x60x8','PP.L100.100.8',$,(#479));
#481=PRESENTATION_STYLE_ASSIGNMENT((#482));
#482=SURFACE_STYLE_USAGE(.BOTH.,#485);
#483=SURFACE_STYLE_RENDERING_WITH_PROPERTIES($,#489,(#484));
#484=SURFACE_STYLE_TRANSPARENT(0.);
#485=SURFACE_SIDE_STYLE('',(#486,#483));
#486=SURFACE_STYLE_FILL_AREA(#487);
#487=FILL_AREA_STYLE('',(#488));
#488=FILL_AREA_STYLE_COLOUR('',#489);
#489=COLOUR_RGB('',0.749019607843137,0.749019607843137,0.749019607843137);
ENDSEC;
END-ISO-10303-21;
